bmc logo razdvojen slim
g_

Twitter Feed

Facebook Page

YouTube Channel

LayZeeSnake Trio

facelift-247x300
youtube thumbnail

Contact:

 

For any inquires, or comments contact us at:

info @bluesmannus.com

(remove the space)


Hendrix and SRV riffs
(/) Slide Up  (\) Slide Down  (h) Hammer On  (p) Pull Off  (b) Bend (r) Release (v) Vibrato

E|------------------------------------------------------------------

B|------------------------------------------------------------------

G|--13--12--10--12----------13--12--10--12--------------------------

D|--11--10--8---10--12--12--11--10--8---10--12--12------10--12--12--

A|------------------10--10------------------10--10--12--------------

E|------------------------------------------------------------------

 

 

E|--------------------------------------------------------------------------------------------------------------

B|------------------10--------------12b---------------------------------10--10------10--10------10--------------

G|------------------10--------------12b-12--10------10------------------10--10------10--10------10--------------

D|------10--12--12------12--10------------------12------12--10--12--12----------12----------12----------10--12--

A|--12--------------------------12------------------------------------------------------------------12----------

E|--------------------------------------------------------------------------------------------------------------

 

 

E|------------------------------------------------------------------

B|------------------------------------------10----------------------

G|------------------------------------------10----------------------

D|----------12--12--10--10--12--12--------------12--10------10--12--

A|------------------------------------------------------12----------

E|--10--10--------------------------10--10--------------------------

 

 

E|------------------------------------------------------------------

B|----------------------------------12--12--10----------------------

G|----------------------------------12--12--10----------------------

D|----------12--12--10--10--12--12--------------12--10------10--12--

A|------------------------------------------------------12----------

E|--10--10----------------------------------------------------------

Hendrix and SRV riffs
Guitar Tabs