bmc logo razdvojen slim
g_

Twitter Feed

Facebook Page

YouTube Channel

LayZeeSnake Trio

facelift-247x300
youtube thumbnail

Contact:

 

For any inquires, or comments contact us at:

info @bluesmannus.com

(remove the space)

Jimi Hendrix - Who Knows

 

main riff

 

G|----------------------------------------------

D|--------------------------------------------2-

A|--4-------4-----2-4-----2---------------------

E|--------------------------4-----3-2-------0---

 

 

variation during parts of solo

 

G|----------------------------------------------

D|--------------------------------------------2-

A|--4-2-----------------------------------------

E|------------------4-3-------------2-------0---

Jimi Hendrix - Who knows
Bass Tabs