bmc logo razdvojen slim
g_

Twitter Feed

Facebook Page

YouTube Channel

LayZeeSnake Trio

facelift-247x300
youtube thumbnail

Contact:

 

For any inquires, or comments contact us at:

info @bluesmannus.com

(remove the space)

Joe Bonamassa - Bridge to better days SOLO bass tab

 

 

     A                 A                 A                 A

G|-------------------|-----------------|-----------------|-----------------

D|---7-7-7-7-7-7-7-7-|-7-7-7-7-7-7-7-7-|-7-7-7-7-7-7-7-7-|-7-7-7-7-7-5-----

A|-------------------|-----------------|-----------------|-------------7-3-

E|-5-----------------|-----------------|-----------------|-----------------

 

   A                 A                 A                 A

G|-----------------|-----------------|-----------------|-----------------

D|-----------------|-----------------|-7-5-------------|-----------------

A|---------3-------|---------3-------|-----7-3-5---3-3-|-3--------------- 2x

E|-3-5-5-5---5-5-5-|-3-5-5-5---5-5-5-|-----------5-----|---2-2-2-3-3-4-4-

 

   D                 D                 D                 D

G|-----------------|-----------------|-----------------|-----------------

D|-----------------|-----------------|-----------------|-----------------

A|-3-5-5-5-5-5-5-5-|-5-5-3-2-3-2-3-2-|-3-5-5-5-5-5-5-5-|-5-5-3-2-3-2-3-2-

E|-----------------|-----------------|-----------------|-----------------

 

   A                 A                 A                 A

G|-----------------|-----------------|-----------------|-----------------

D|-----------------|-----------------|-7-5-------------|-----------------

A|---------3-------|---------3-------|-----7-3-5---3-3-|-3---------------

E|-3-5-5-5---5-5-5-|-3-5-5-5---5-5-5-|-----------5-----|---2-2-2-3-3-4-4-

 

   D                 D                 D                 D

G|-----------------|-----------------|-----------------|-----------------

D|-----------------|-----------------|-----------------|-----------------

A|-3-5-5-5-5-5-5-5-|-5-5-3-2-3-2-3-2-|-3-5-5-5-5-5-5-5-|-5-5-3-2-3-2-3-2-

E|-----------------|-----------------|-----------------|-----------------

 

   A                 A                 A                 A

G|-----------------|-----------------|-----------------|-----------------

D|-----------------|-----------------|-7-5-------------|-----------------

A|---------3-------|---------3-------|-----7-3-5---3-3-|-3---------------

E|-3-5-5-5---5-5-5-|-3-5-5-5---5-5-5-|-----------5-----|---2-2-2-3-3-4-4-

 

   D                 D                  D                     D

G|-----------------|------------------|---------------------|-----------------

D|-----------------|-----------0-16p0-|-17p0-16p0-14p0-12p0-|-9p0-7p0-5-4-2-0-

A|-3-5-5-5-5-5-5-5-|-5-5-3-2-3--------|---------------------|-----------------

E|-----------------|------------------|---------------------|-----------------

 

   A                 A                 A                 A

G|-----------------|-----------------|-----------------|-----------------

D|-----------------|-----------------|-7-5-------------|-----------------

A|---------3-------|---------3-------|-----7-3-5---3-3-|-3---------------

E|-3-5-5-5---5-5-5-|-3-5-5-5---5-5-5-|-----------5-----|---2-2-2-3-3-4-4-

 

   E          D            C#          E

G|----------|------------|-----------|-------------

D|----------|------------|-----------|-------------

A|----------|-5-5---5--5-|-4-4--4----|-7-7--7--7--- 2x

E|-0---0--0-|------------|---------0-|----------7--

 

   A                 C                 C#                D       D#  E

G|-----------------|-----------------|-----------------|-----------------

D|-----------------|-----------------|-----------------|-----------------

A|-----------------|---3-3-3-3-3-3-3-|-4-4-4-4-4-4-4-4-|-5-5-5-5-6-6-7-7-

E|-5-5-5-5-5-5-5-5-|-5---------------|-----------------|-----------------

 

   A                 C                 C#                  D

G|-----------------|-----------------|-----------------|---------------

D|-----------------|-----------------|-----------------|---------------

A|-----------------|---3-3-3-3-3-3-3-|-4-4-4-4-4-4-4-4-|---5--6--7-----

E|-5-5-5-5-5-5-5-5-|-5---------------|-----------------|------------0--

Joe Bonamassa - Bridge to better days SOLO bass tab