bmc logo razdvojen slim
g_

Twitter Feed

Facebook Page

YouTube Channel

LayZeeSnake Trio

facelift-247x300
youtube thumbnail

Contact:

 

For any inquires, or comments contact us at:

info @bluesmannus.com

(remove the space)

(/) Slide Up  (\) Slide Down  (h) Hammer On  (p) Pull Off  (b) Bend (r) Release (v) Vibrato

 

E|-----------------------------------------------------------------------

B|------10--12--12br--10----10----------10--12-10--12b-12--10-----10-----

G|--/11------------------11----11----11-----------------------11-----11--

D|-----------------------------------------------------------------------

A|-----------------------------------------------------------------------

E|-----------------------------------------------------------------------

 

 

E|--10--12b-12--10-12------------------------------------------------------------------------

B|--------------------12br-10-12--10--12--10h12p10\9--10--9h10p9\7--9--7\5-----5-------------

G|--------------------------------------------------------------------------7--------6-------

D|-------------------------------------------------------------------------------------7-----

A|---------------------------------------------------------------------------------------7-5-

E|-------------------------------------------------------------------------------------------

 

 

E|-----------------5----------------------------------5-------

B|---------------5---8-------7-5--------------------5---8-5---

G|---------4h5h6---------4/6-----6--------------4/6---------7-

D|-----4h7-------------------------7-5-----7------------------

A|-4h7---------------------------------7/9--------------------

E|------------------------------------------------------------

 

 

E|--------------------------------------------12b-12--------------------------10-12--------

B|-----10-12-12br-10-10----10h12p10----10------------12br-10---10----10-12-12b-----12br-10-

G|-/11-------------------11--------11-----11----------------11-----11----------------------

D|-----------------------------------------------------------------------------------------

A|-----------------------------------------------------------------------------------------

E|-----------------------------------------------------------------------------------------

 

 

E|-0-2-5-----------------------------------------------------

B|--------------------------5--------------------------------

G|-------4br-2p0-----2--4/5----4p2---4-2---------------------

D|---------------2h4---------------4-----4p2-----------------

A|-------------------------------------------4-2h4p2p0-------

E|-----------------------------------------------------2p0h2-

 

 

E|---------------------------5-----------------------

B|-------------------------5------10-10----10----10--

G|---------2-1-0-------4/6-----/11-------11----11----

D|-------2-------4-2---------------------------------

A|-0-2-4-------------4-------------------------------

E|---------------------------------------------------

 

 

E|------------------------------------------------------------------12b-12-10-12---------------

B|----10-10-9-8--10-12b-12p10--12-10-------10-13b-b13p10--12-10-----------------12br-10--10-10-

G|-/11-----------------------11-----11---11-------------11------11---------------------11------

D|---------------------------------------------------------------------------------------------

A|---------------------------------------------------------------------------------------------

E|---------------------------------------------------------------------------------------------

 

 

E|-------17------------------------------------------------------------------------------

B|-17-19----19-----------------------------------------------17-19-17-19b-19-17----17-17-

G|-------------16br-14----14-------14-16b-16b-16-14----14-----------------------19-------

D|--------------------16----16--16-----------------16----16------------------------------

A|---------------------------------------------------------------------------------------

E|---------------------------------------------------------------------------------------

 

 

E|----17-19-17----------------------------17----20b--------17-------------------

B|-19----------19b-19-17----17-17---17-19----19------17-19----20-17-------------

G|-----------------------19-----------------------------------------19-17-------

D|------------------------------------------------------------------------19----

A|---------------------------------------------------------------------------19-

E|------------------------------------------------------------------------------

 

 

E|-17-------------------------------------------------------------------------

B|----20-17----19-17----------------------------------------------------------

G|----------19-------17----19-17----17\16-16\14-14\12-12\11-11\9-9\7-7b-7-5---

D|----------------------19-------19-----------------------------------------7-

A|----------------------------------------------------------------------------

E|----------------------------------------------------------------------------

 

 

E|-7b-7-5-----------8b-5---8-5-------5-------------5-------

B|--------8-5------------------8---5---8-5-------5---8-5---

G|------------7-5----------------7b---------4h5h6--------7-

D|----------------7----------------------------------------

A|---------------------------------------------------------

E|---------------------------------------------------------

 

 

E|---------------------------------------------------

B|---------------------------------------------------

G|-5/6-5/6---0-2--5/6-5/6----------------------------

D|-4/5-4/5—2------4/5-4/5---5-7-5-7-5-------5-7-5-7\-

A|------------------------------------3-4------------

E|---------------------------------------------------

John Mayer - I got a woman (live in New York) MAIN SOLO
Guitar Tabs


Here is one of Johns better solos played in New Yor City Ballroom.