bmc logo razdvojen slim
g_

Twitter Feed

Facebook Page

YouTube Channel

LayZeeSnake Trio

facelift-247x300
youtube thumbnail

Contact:

 

For any inquires, or comments contact us at:

info @bluesmannus.com

(remove the space)

John Mayer trio - I got a woman

 

intro (00:24)

 

G|--------------------------------------------------

D|-------------------------------------------------- 2x

A|--------------------------------------------------

E|--5--5-5--5----5--5-5-------5--5-5--5----5--2--3--

 

   A                      A                           D                    D

G|-----------------------|---------------------------|--------------------|-------------------------

D|-----------------------|---------------------------|--------------------|---------------------4---

A|-----------------------|---------------2p0-3p0-4p0-|5--5-5--5---5--5-5--|5--5-5--5--5--6--7-7---7-

E|-5-—5-5—-5---5--5-5----|5--5-5--5--5--5------------|--------------------|---------------------------

 

 

   A                        E                 G         A            D     G     A

G|-------------------------|---------------------------|------------------------|---------------------

D|-------------------------|---------------------------|------------------------|---------------------

A|-------------------------|7--------------------------|-------------5----------|---------------------

E|-5--5-5--5---0-5--5-5----|---0-0--0---0--0--3--------|5--5-5--5--5----2--3----|5--5-5--5---0-5--5-5-

 

 

verse (00:54)

 

    A                       E                     A             D         A

G|-------------------------|---------------------|-----------------------|--------------------------

D|-------------------------|---------------------|-----------------------|--------------------------

A|-------------------------|7--------------------|--------------5-0-5----|--------------------7--6--

E|--5--5-5--5---5--5-5-----|---0-0--0---0--0-0---|5--5-5--5---5----------|5--5-5--5---0-5--5--------

 

 

   D                             D                     E                       E

G|----------------------5-5-4---|---------------------|-----------------------|----------------------------

D|------------------4-7-------7-|---------------------|-----------------------|----------------------------

A|-5--5-5--5---5--5-------------|5--5-5--5--5--4--5---|7--7-7--7---7---2-2-4-2|----------------------------

E|------------------------------|---------------------|-----------------------|0--0-0--0--0--0-2p0-3p0-4p0-

 

 

   A                      A                           D                    D

G|-----------------------|---------------------------|--------------------|-------------------------

D|-----------------------|---------------------------|--------------------|---------------------4---

A|-----------------------|---------------2p0-3p0-4p0-|5--5-5--5---5--5-5--|5--5-5--5--5--6--7-7---7-

E|-5-—5-5—-5---5--5-5----|5--5-5--5--5--5------------|--------------------|-------------------------

 

 

   A                        E                 G         A            D     G     A

G|-------------------------|---------------------------|------------------------|---------------------

D|-------------------------|---------------------------|------------------------|---------------------

A|-------------------------|7--------------------------|-------------5----------|---------------------

E|-5--5-5--5---0-5--5-5----|---0-0--0---0--0--3--------|5--5-5--5--5----2--3----|5--5-5--5---0-5--5-5-

John Mayer - I got a woman (live in New York) 
Bass Tabs