bmc logo razdvojen slim
g_

Twitter Feed

Facebook Page

YouTube Channel

LayZeeSnake Trio

facelift-247x300
youtube thumbnail

Contact:

 

For any inquires, or comments contact us at:

info @bluesmannus.com

(remove the space)


Red House intro  (new slowed down video coming soon)
(/) Slide Up  (\) Slide Down  (h) Hammer On  (p) Pull Off  (b) Bend (r) Release (v) Vibrato

Red house intro

 

E|------11------11------11------11------11--11---------9--------9-----9--9--------9-----11--

B|----------------------------------10--------------------8-----------------8--------8--12--

G|--/11-----11------11------11------------------11--9--------9-----9-----------9--------11--

D|------------------------------------------------------------------------------------------

A|------------------------------------------------------------------------------------------

E|------------------------------------------------------------------------------------------

 

E|----------------------7------------7--------10h7--------------------------

B|--10b-10b-10b-10b-10-----10-----7-----10h7---------10h7-------------------

G|-----------------------------9b-------------------------9b--7--9b--7~~~~--

D|-----------------------------------------------------------------------9\-

A|--------------------------------------------------------------------------

E|--------------------------------------------------------------------------

 

E|-------------7------7--10------7---------------------------------------------

B|-----------7---10------------7---10--7-----7h9--7----------------------------

G|--9b-7--9b----------------9b------------9----------9--7h8--------------------

D|-----------------------------------------------------------9--7--------------

A|-----------------------------------------------------------------9p8p7--5h6--

E|-----------------------------------------------------------------------------

 

E|-------------------------------------------------14------14-------------------------

B|--------------------------12--14b----14b-14b-14b----14b-----b14p12--14p12----12~~~--

G|-----------------8--11/13-------------------------------------------------13--------

D|-----------6--9---------------------------------------------------------------------

A|-----6--9---------------------------------------------------------------------------

E|--7---------------------------------------------------------------------------------

 

E|------------------14----------------7--------10p7----10p7-----------------------

B|--15brbr--12--14b---b14--12-----7-----10--7----------------7--------------------

G|-----------------------------9b-------------------------------9brb--7------8/9--

D|---------------------------------------------------------------------9-----7/8--

A|----------------------------------------------------------------------9\--------

E|--------------------------------------------------------------------------------

 

There's a red house...

 

E|-----------------------7---------------7------------------------------------------------------

B|-7h9-7---------------7---10-7--------7---10-7--7--------------7-7-10---7----------------------

G|------7------7b----9b---------9brbr-----------9-9---------7-9--------9b--7-9---7h9-7-------7b-

D|-------9-7h9------------------------------------------9-9--------------------9-------9-9~~----

A|----------------------------------------------------------------------------------------------

E|----------------------------------------------------------------------------------------------

 

Lord there's a red house...

E|-------------------------------------------------------------------------

B|-7h9-7-------------------------------------------------------------------

G|------7-----------------------------------------------------------------

D|-------9-7h9-7\---7h9--9p7---------7-9--7--------------4-----------2-2---

A|-------------------------------7-9--------9-8-7-5------4-------2-4-------

E|----------------------------10--------------------7--0-2---2-4---------0-

 

In 99 and one half days...

E|-------------------------------7-----------

B|----7-9-7--------------------7-7-------7---

G|-/8-------8\-------4h6p4--/8-------7h8-----

D|---------------4h6-------------------------

A|-----------------------------------------9-

E|-------------------------------------------

 

Wait a minute...

E|--------------------------------7-----7--7-------7----10p7--------7---------7------10b--10p7----------------

B|-7h9-7h9-7h9-7----------------7---10b--10------7--10p7----7-10b----10p7---7--10p7-----------10p7------------

G|--------------7------7b-----9b---------------9b-------------------------9b-----------------------10-9-7~----

D|---------------9-7h9-------------------------------------------------------------------------------------9\-

A|------------------------------------------------------------------------------------------------------------

E|------------------------------------------------------------------------------------------------------------

 

Wait a minute...

E|-----------------7-7-7---7-7-7---7-7-7-7--------------------------------------9/11\9-7/9\7--

B|--------------------------------------------------------------------------------------------

G|-----7/9\7-----9b------9b------9b--------9p7--7---------------7-9br-7---------9/11\9-7/9\7--

D|-4/6-------9\-------------------------------9---9p7---7-9-9-9---------9---------------------

A|---------------------------------------------------9--------------------9~~-----------------

E|--------------------------------------------------------------------------------------------

 

...that my baby don't...

E|-------7----------------------------------

B|-----7--10p7------------------------------

G|-9b---------7-----------------7-9br-7-----

D|----------------9p7--7-9-9-9----------9---

A|-------------------9--------------------9-

E|------------------------------------------

 

 

 

 

 

 

SOLO

 

E|--------------10-12br-10---10b-------14b--14-12h14----12-14--12-----12------12-------10-12b-12--10h12p10----

B|-----12-12-12-----------12---------12-------------15----------15p12--15p12---15p12-----------------------12-

G|-/11-----------------------------13-------------------------------------------------------------------------

D|------------------------------------------------------------------------------------------------------------

A|------------------------------------------------------------------------------------------------------------

E|------------------------------------------------------------------------------------------------------------

 

E|----------------------------

B|-10b-7-7h10p7---------------

G|--------------9p7-9p7---7h8-

D|----------------------9-----

A|----------------------------

E|----------------------------

 

E|-----7------9p7---10p7---10p7---10p7---10p7---10p7---10p7---10p7---10p7---10p7---10p7---10p7---10p7---10p7---

B|---7--10p7-----7------7------7------7------7------7------7------7------7------7------7------7------7------7--

G|-9-----------------------------------------------------------------------------------------------------------

D|-------------------------------------------------------------------------------------------------------------

A|-------------------------------------------------------------------------------------------------------------

E|-------------------------------------------------------------------------------------------------------------

 

E|-10b-10-7h10p7---------7----------7------------------------------7-----9p7----

B|--------------10-10b-----10p7---7--10p7---7-------------------7---10p7-----7--

G|-----------------------------9b---------9b--9p7---9---7h8----9----------------

D|------------------------------------------------9---9-------------------------

A|------------------------------------------------------------------------------

E|------------------------------------------------------------------------------

 

E|-10b-10p7-----7-10b-10p7-10b-10p7-10b-10p7-10b-10p7-10b-14-14-14--17b-17-14h17p14--14h17p14------------------------

B|---------7h10-----------7--------7--------7--------7-----------------------------17--------17b-17p15-17p15--15h16\-

G|----------------------------------------------------------------------------------------------------------16-------

D|-------------------------------------------------------------------------------------------------------------------

A|-------------------------------------------------------------------------------------------------------------------

E|-------------------------------------------------------------------------------------------------------------------

 

E|-----7--------10----------14b-14-14b-14~-14b-14-12h14---------7-10/---------7-------------------------

B|---7---10h12----12p10---12-------------------------- 14\----7-------------7--10p7-------7h9-7---------

G|-/8-------------------------------------------------------/8--------7---9b---------7b--------7--9-9\--

D|-------------------------------------------------------------------------------------9----------7-7\--

A|--------------------------------------------------------------------------------------9-------9-9-9\--

E|------------------------------------------------------------------------------------------------------

 

 

 

 

Well I might...

 

E|------7/9\7------------------------------------7-------------------------

B|-9-7—-7/9\7-----7h9-7------------------------7---10p7--------------------

G|-9-7------------------9-7h8----------------9b---------7---------------7b-

D|----------------------------9-7-------------------------9p7---7-9-9-9----

A|--------------------------------9-8-7-5h6-------------------9------------

E|-------------------------------------------------------------------------

 

Well I might...

 

E|------------------11-11-11-----11-11-11-----11-11-11-----11-11-11----------------------------

B|------------------10-10-10-----10-10-10-----10-10-10-----10-10-10----------------------------

G|-----7/9\7----/11-11-11-11-/11-11-11-11-/11-11-11-11-/11-11-11-11-7h9p7-----------7-9br-7----

D|-4/6-------9\-----------------------------------------------------------9p7---7-9--------9---

A|----------------------------------------------------------------------------9-------------9--

E|---------------------------------------------------------------------------------------------

 

Cause if my baby dont...

 

E|---9-9---9-9-----8---7-------7-9-7-----7-9b-7---7-10b-----------------------------------------

B|---------------------7-------------7h9--------7---------------7h9-7---------------------------

G|-9-----9-----9-8---8-7----9b---------------------------9-8----------7---7h8-------------------

D|-------------------------------------------------------8-7------------9-----9-7---------------

A|-------------------------------------------------------7-6----------------------9-8-7-5h6-----

E|-------------------------------------------------------8-7--------------------------------6h7-

Red House full song
Guitar Tabs