bmc logo razdvojen slim
g_

Twitter Feed

Facebook Page

YouTube Channel

LayZeeSnake Trio

facelift-247x300
youtube thumbnail

Contact:

 

For any inquires, or comments contact us at:

info @bluesmannus.com

(remove the space)


Rhythm lesson 1 (John Mayer - Who did you think I was)
(/) Slide Up  (\) Slide Down  (h) Hammer On  (p) Pull Off  (b) Bend (r) Release (v) Vibrato

E|-------------------------------------------
B|-------------------------------------------
G|-----5/6-----------------------------------
D|-----4/5--x--x--5--7--x--x--------5--------
A|----------x--x--------x--x-----------------
E|--5-------x--x--------x--x--8-b-----8-b----

E|-------------------------------------------
B|-------------------------------------------
G|-----5/6-----------------------------------
D|-----4/5--x--x--5--7----x--x---------------
A|----------x--x----------x--x--------5v-----
E|--5-------x--x----------x--x--8-b----------


E|---------------------------------------------
B|---------------------------------------------
G|--------2h4---2------------------------------
D|---------------------4--2--------------------
A|---------------------------4--2--------------
E|--2--2---------------------------5--2--2--2--

E|-------------------------------------------------
B|-------------------------------------------------
G|--------2h4---2----0-----------------------------
D|----------------------2----0---------------------
A|------------------------------2----3--0----------
E|--3--3-------------------------------------3--0--

Rhythm lesson 1 (Who did you think I was)
Guitar Tabs