bmc logo razdvojen slim
g_

Twitter Feed

Facebook Page

YouTube Channel

LayZeeSnake Trio

facelift-247x300
youtube thumbnail

Contact:

 

For any inquires, or comments contact us at:

info @bluesmannus.com

(remove the space)


Rhythm lesson 2 (I Don't Need No Doctor )
(/) Slide Up  (\) Slide Down  (h) Hammer On  (p) Pull Off  (b) Bend (r) Release (v) Vibrato
E|----------------0-----------------------------------------------------------------
B|--------------------3--0-----------------3--0-------------------------------------
G|------0--1-----------------0-------------4--0----------2---------0h1p0h1p0h1p0h1--
D|---------------------------------------------------2---------2--------------------
A|----------------------------------------------------------------------------------
E|--0--------------------------------3----------------------------------------------

E|------------------0----------------------------x-----2-----0--2--
B|----------------------3--0------------------3--x-----0-----------
G|-------0--1------------------0--------------4--x-----------------
D|-----------------------------------------------------------------
A|-----------------------------------------------------------------
E|--0-------------------------------------3------------------------

Rhythm lesson 2 (I Don't Need No Doctor )
Guitar Tabs