bmc logo razdvojen slim
g_

Twitter Feed

Facebook Page

YouTube Channel

LayZeeSnake Trio

facelift-247x300
youtube thumbnail

Contact:

 

For any inquires, or comments contact us at:

info @bluesmannus.com

(remove the space)


SRV Rude Mood (slowed down) rhythm lesson
(/) Slide Up  (\) Slide Down  (h) Hammer On  (p) Pull Off  (b) Bend (r) Release (v) Vibrato
---------------------------------------------------------------------------------
---------------------------------------------------------------------------------
----x---x---x----x----x------x---x---x-----x---x---x---x---x---x---x---x---------
----x---x---x----x----x--2---x---x---x-----x---x---x---x---x-2-x---x---x---------
----x---x---x--2-x--4-x------x---x-2-x-4---x---x---x-2-x-4-x---x---x-2-x-4-------
------0---3--------------------3-------------0---3---------------3---------------

----------------------------------------------------------------------------------
---X---x---x---x----x----x---x---x------------------------------------------------
---x---x---x---x----x-2--x---x---x-----x---x---x---x----x------x---x---x----------
---x---x---x-2-x--4-x----x---x-2-x-4---x---x---x---x----x--2---x---x---x----------
-----0---3-----------------3-----------x---x---x-2-x--4-x------x---x-2-x-4--------
-----------------------------------------0---3-------------------3----------------
-----------------------------------------------------------------------
-----------------------------------------------------------------------
-----------------------------------------------------2-----------------
----------------------------------------2p0----x-----1-----------------
---------0-1-2-0-----------------2-4-----------x-----2-----------------
--2-4-------------4-2-----0--4-----------------------------------------

SRV Rude Mood (slowed down) rhythm lesson
Guitar Tabs