bmc logo razdvojen slim
g_

Twitter Feed

Facebook Page

YouTube Channel

LayZeeSnake Trio

facelift-247x300
youtube thumbnail

Contact:

 

For any inquires, or comments contact us at:

info @bluesmannus.com

(remove the space)


Since I've been loving you intro
(/) Slide Up  (\) Slide Down  (h) Hammer On  (p) Pull Off  (b) Bend (r) Release (v) Vibrato

E|-11----11-13-13b-13----13-15-16-15p13----------------------------------11-13p11h13p11h13p11h13p11

B|----13-------------13----------------13----------------------------13----------------------------

G|----------------------------------------13p12----12h13p12----12h13-------------------------------

D|----------------------------------------------15----------15-------------------------------------

A|-------------------------------------------------------------------------------------------------

E|-------------------------------------------------------------------------------------------------

 

E|-------------------------15-16-15h16----------------------------------------------------------11---13b----------

B|-16-16brb-13----16-13-13-------------13-13-15-16-15h16-13-13-------------------13b-13br-11-13----13----13-13-11-

G|-------------15----------------------------------------------14-15-14h15-12-12----------------------------------

D|----------------------------------------------------------------------------------------------------------------

A|----------------------------------------------------------------------------------------------------------------

E|----------------------------------------------------------------------------------------------------------------

 

E|----11----10----8---10-8-----------------------------------------------------

B|-/13---13----11---9------9-9-8-8-6-6-4-4-------------------------------------

G|-----------------------------------------5-3\1-0-----------------------------

D|-------------------------------------------------3-1-3-3/5\3-------3/5\3-1---

A|---------------------------------------------------------------------------3-

E|-------------------------------------------------------------1/3\1-----------

 

E|---------------------------------------------------------11b----------11b-13----------

B|------------------------------------------------------11----13-13-13---------13-13-11-

G|----8-10-10b-10p8h10-10p8-----------8----------8/10-12--------------------------------

D|-10----------------------10------8---10-10-10-----------------------------------------

A|----------------------------8h10------------------------------------------------------

E|--------------------------------------------------------------------------------------

 

E|----11-13-13brb-11-----------------8------11-8h10p8------11p8------------------

B|-13---------------13-13----8----8---11p8-----------11p8------11p8--------------

G|----------------------------10b-----------------------------------11p10p8----8-

D|--------------------------------------------------------------------------10---

A|-------------------------------------------------------------------------------

E|-------------------------------------------------------------------------------

 

E|----------------------------------13-13b-13b-13b---------11----------11------13b-11-------11----13b-------

B|-------------------------------15----------------9-11-11b---b11-9-11b---b11-9-------13p11----13----13-13--

G|-15p12----15p12----12----12-15----------------------------------------------------------------------------

D|-------15-------15----15----------------------------------------------------------------------------------

A|----------------------------------------------------------------------------------------------------------

E|----------------------------------------------------------------------------------------------------------

 

E|------8------11-8h10p8------11p8-------------------------------------------------------------

B|----8---11p8-----------11p8-----11p8------------------------------------------------------8--

G|-10b----------------------------------11p10p8----8--------------------------8---------8h10---

D|----------------------------------------------10---10p8-------------------8---10p8-10--------

A|--------------------------------------------------------10p9p8\6---6/8-10--------------------

E|-----------------------------------------------------------------8---------------------------

 

E|-8------8------8------8------8------8------10b-10-b10-10-b10-8-b10r-8-------------

B|---11p8---11p8---11p8---11p8---11p8---11p8----------------------------11-11-11/13-

G|----------------------------------------------------------------------------------

D|----------------------------------------------------------------------------------

A|----------------------------------------------------------------------------------

E|----------------------------------------------------------------------------------

 

Since I've been loving you intro
Guitar Tabs